ISO-10303-21;
HEADER;
FILE_DESCRIPTION (( 'STEP AP203' ),
    '1' );
FILE_NAME ('QB-CTZQWP-25.4-852-M.STEP',
    '2020-12-24T01:51:33',
    ( '' ),
    ( '' ),
    'SwSTEP 2.0',
    'SolidWorks 2020',
    '' );
FILE_SCHEMA (( 'CONFIG_CONTROL_DESIGN' ));
ENDSEC;

DATA;
#1 = DIRECTION ( 'NONE',  ( 0.000000000000000000, 0.000000000000000000, 1.000000000000000000 ) ) ;
#2 = ORIENTED_EDGE ( 'NONE', *, *, #22, .T. ) ;
#3 = APPROVAL ( #19, 'UNSPECIFIED' ) ;
#4 = CALENDAR_DATE ( 2020, 24, 12 ) ;
#5 = ORIENTED_EDGE ( 'NONE', *, *, #168, .T. ) ;
#6 = APPLICATION_PROTOCOL_DEFINITION ( 'international standard', 'config_control_design', 1994, #158 ) ;
#7 = AXIS2_PLACEMENT_3D ( 'NONE', #169, #140, #23 ) ;
#8 = VECTOR ( 'NONE', #44, 1000.000000000000000 ) ;
#9 = EDGE_CURVE ( 'NONE', #107, #149, #153, .T. ) ;
#10 = PERSON_AND_ORGANIZATION_ROLE ( 'design_supplier' ) ;
#11 = DATE_TIME_ROLE ( 'classification_date' ) ;
#12 = CC_DESIGN_SECURITY_CLASSIFICATION ( #104, ( #65 ) ) ;
#13 = ORIENTED_EDGE ( 'NONE', *, *, #155, .T. ) ;
#14 =( NAMED_UNIT ( * ) PLANE_ANGLE_UNIT ( ) SI_UNIT ( $, .RADIAN. ) );
#15 = CYLINDRICAL_SURFACE ( 'NONE', #174, 15.00000000000000000 ) ;
#16 = CARTESIAN_POINT ( 'NONE',  ( -3.000000000000000888, 12.69999999999999929, 0.000000000000000000 ) ) ;
#17 = CALENDAR_DATE ( 2020, 24, 12 ) ;
#18 = EDGE_LOOP ( 'NONE', ( #46, #93, #62, #117 ) ) ;
#19 = APPROVAL_STATUS ( 'not_yet_approved' ) ;
#20 = ORGANIZATION ( 'UNSPECIFIED', 'UNSPECIFIED', '' ) ;
#21 = CC_DESIGN_PERSON_AND_ORGANIZATION_ASSIGNMENT ( #77, #25, ( #104 ) ) ;
#22 = EDGE_CURVE ( 'NONE', #163, #109, #40, .T. ) ;
#23 = DIRECTION ( 'NONE',  ( 0.000000000000000000, 0.000000000000000000, 1.000000000000000000 ) ) ;
#24 = LOCAL_TIME ( 9, 51, 33.00000000000000000, #115 ) ;
#25 = PERSON_AND_ORGANIZATION_ROLE ( 'classification_officer' ) ;
#26 = PLANE ( 'NONE',  #66 ) ;
#27 = PLANE ( 'NONE',  #82 ) ;
#28 = LINE ( 'NONE', #80, #30 ) ;
#29 = PERSON_AND_ORGANIZATION ( #133, #20 ) ;
#30 = VECTOR ( 'NONE', #130, 1000.000000000000000 ) ;
#31 = FACE_OUTER_BOUND ( 'NONE', #135, .T. ) ;
#32 = APPROVAL_DATE_TIME ( #150, #139 ) ;
#33 = CARTESIAN_POINT ( 'NONE',  ( 0.000000000000000000, 0.000000000000000000, 0.000000000000000000 ) ) ;
#34 = APPLICATION_PROTOCOL_DEFINITION ( 'international standard', 'config_control_design', 1994, #56 ) ;
#35 = APPROVAL_PERSON_ORGANIZATION ( #54, #152, #142 ) ;
#36 = ADVANCED_FACE ( 'NONE', ( #31 ), #26, .F. ) ;
#37 = AXIS2_PLACEMENT_3D ( 'NONE', #112, #126, #52 ) ;
#38 = CALENDAR_DATE ( 2020, 24, 12 ) ;
#39 = SHAPE_DEFINITION_REPRESENTATION ( #136, #143 ) ;
#40 = CIRCLE ( 'NONE', #131, 15.00000000000000000 ) ;
#41 = CARTESIAN_POINT ( 'NONE',  ( 3.000000000000000888, 12.69999999999999929, 0.000000000000000000 ) ) ;
#42 = UNCERTAINTY_MEASURE_WITH_UNIT (LENGTH_MEASURE( 1.000000000000000082E-05 ), #114, 'distance_accuracy_value', 'NONE');
#43 = AXIS2_PLACEMENT_3D ( 'NONE', #33, #87, #138 ) ;
#44 = DIRECTION ( 'NONE',  ( -1.000000000000000000, -0.000000000000000000, -0.000000000000000000 ) ) ;
#45 = PRODUCT_RELATED_PRODUCT_CATEGORY ( 'detail', '', ( #166 ) ) ;
#46 = ORIENTED_EDGE ( 'NONE', *, *, #155, .F. ) ;
#47 = APPROVAL_STATUS ( 'not_yet_approved' ) ;
#48 = FACE_OUTER_BOUND ( 'NONE', #154, .T. ) ;
#49 = APPROVAL_ROLE ( '' ) ;
#50 = DIRECTION ( 'NONE',  ( -1.000000000000000000, -0.000000000000000000, -0.000000000000000000 ) ) ;
#51 = PRODUCT_DEFINITION ( 'UNKNOWN', '', #65, #144 ) ;
#52 = DIRECTION ( 'NONE',  ( 0.000000000000000000, 0.000000000000000000, 1.000000000000000000 ) ) ;
#53 =( GEOMETRIC_REPRESENTATION_CONTEXT ( 3 ) GLOBAL_UNCERTAINTY_ASSIGNED_CONTEXT ( ( #42 ) ) GLOBAL_UNIT_ASSIGNED_CONTEXT ( ( #114, #14, #72 ) ) REPRESENTATION_CONTEXT ( 'NONE', 'WORKASPACE' ) );
#54 = PERSON_AND_ORGANIZATION ( #133, #20 ) ;
#55 = DATE_AND_TIME ( #38, #92 ) ;
#56 = APPLICATION_CONTEXT ( 'configuration controlled 3d designs of mechanical parts and assemblies' ) ;
#57 = EDGE_LOOP ( 'NONE', ( #5, #13, #123, #175 ) ) ;
#58 = ADVANCED_FACE ( 'NONE', ( #60 ), #59, .T. ) ;
#59 = CYLINDRICAL_SURFACE ( 'NONE', #156, 15.00000000000000000 ) ;
#60 = FACE_OUTER_BOUND ( 'NONE', #57, .T. ) ;
#61 = COORDINATED_UNIVERSAL_TIME_OFFSET ( 8, 0, .AHEAD. ) ;
#62 = ORIENTED_EDGE ( 'NONE', *, *, #125, .T. ) ;
#63 = DATE_TIME_ROLE ( 'creation_date' ) ;
#64 = CC_DESIGN_PERSON_AND_ORGANIZATION_ASSIGNMENT ( #68, #10, ( #65 ) ) ;
#65 = PRODUCT_DEFINITION_FORMATION_WITH_SPECIFIED_SOURCE ( 'ANY', '', #166, .NOT_KNOWN. ) ;
#66 = AXIS2_PLACEMENT_3D ( 'NONE', #41, #78, #84 ) ;
#67 = CIRCLE ( 'NONE', #7, 15.00000000000000000 ) ;
#68 = PERSON_AND_ORGANIZATION ( #133, #20 ) ;
#69 = ADVANCED_FACE ( 'NONE', ( #48 ), #27, .F. ) ;
#70 = DIRECTION ( 'NONE',  ( 1.000000000000000000, 0.000000000000000000, 0.000000000000000000 ) ) ;
#71 = DIRECTION ( 'NONE',  ( 0.000000000000000000, 0.000000000000000000, 1.000000000000000000 ) ) ;
#72 =( NAMED_UNIT ( * ) SI_UNIT ( $, .STERADIAN. ) SOLID_ANGLE_UNIT ( ) );
#73 = DIRECTION ( 'NONE',  ( -1.000000000000000000, -0.000000000000000000, -0.000000000000000000 ) ) ;
#74 = DIRECTION ( 'NONE',  ( 0.000000000000000000, 0.000000000000000000, 1.000000000000000000 ) ) ;
#75 = APPROVAL_ROLE ( '' ) ;
#76 = APPROVAL_PERSON_ORGANIZATION ( #110, #3, #75 ) ;
#77 = PERSON_AND_ORGANIZATION ( #133, #20 ) ;
#78 = DIRECTION ( 'NONE',  ( -1.000000000000000000, 0.000000000000000000, -0.000000000000000000 ) ) ;
#79 = CARTESIAN_POINT ( 'NONE',  ( -3.000000000000000000, 0.000000000000000000, 15.00000000000000000 ) ) ;
#80 = CARTESIAN_POINT ( 'NONE',  ( -1.614212418857619014, 1.836970198721029589E-15, -15.00000000000000000 ) ) ;
#81 = MECHANICAL_CONTEXT ( 'NONE', #56, 'mechanical' ) ;
#82 = AXIS2_PLACEMENT_3D ( 'NONE', #16, #70, #91 ) ;
#83 = PERSON_AND_ORGANIZATION_ROLE ( 'creator' ) ;
#84 = DIRECTION ( 'NONE',  ( -0.000000000000000000, 0.000000000000000000, 1.000000000000000000 ) ) ;
#85 = CC_DESIGN_PERSON_AND_ORGANIZATION_ASSIGNMENT ( #86, #83, ( #65 ) ) ;
#86 = PERSON_AND_ORGANIZATION ( #133, #20 ) ;
#87 = DIRECTION ( 'NONE',  ( 0.000000000000000000, 0.000000000000000000, 1.000000000000000000 ) ) ;
#88 = LOCAL_TIME ( 9, 51, 33.00000000000000000, #164 ) ;
#89 = APPROVAL_STATUS ( 'not_yet_approved' ) ;
#90 = CC_DESIGN_APPROVAL ( #139, ( #65 ) ) ;
#91 = DIRECTION ( 'NONE',  ( 0.000000000000000000, 0.000000000000000000, -1.000000000000000000 ) ) ;
#92 = LOCAL_TIME ( 9, 51, 33.00000000000000000, #172 ) ;
#93 = ORIENTED_EDGE ( 'NONE', *, *, #9, .T. ) ;
#94 = CARTESIAN_POINT ( 'NONE',  ( -3.000000000000000000, 0.000000000000000000, 0.000000000000000000 ) ) ;
#95 = APPROVAL_DATE_TIME ( #108, #3 ) ;
#96 = DIRECTION ( 'NONE',  ( -1.000000000000000000, -0.000000000000000000, -0.000000000000000000 ) ) ;
#97 = COORDINATED_UNIVERSAL_TIME_OFFSET ( 8, 0, .AHEAD. ) ;
#98 = ORIENTED_EDGE ( 'NONE', *, *, #170, .T. ) ;
#99 = CC_DESIGN_APPROVAL ( #3, ( #51 ) ) ;
#100 = SECURITY_CLASSIFICATION_LEVEL ( 'unclassified' ) ;
#101 = CC_DESIGN_PERSON_AND_ORGANIZATION_ASSIGNMENT ( #124, #148, ( #166 ) ) ;
#102 = CARTESIAN_POINT ( 'NONE',  ( 3.000000000000000000, 1.836970198721029589E-15, -15.00000000000000000 ) ) ;
#103 = LINE ( 'NONE', #160, #8 ) ;
#104 = SECURITY_CLASSIFICATION ( '', '', #100 ) ;
#105 = CARTESIAN_POINT ( 'NONE',  ( -1.614212418857619014, 0.000000000000000000, 0.000000000000000000 ) ) ;
#106 = PERSON_AND_ORGANIZATION_ROLE ( 'creator' ) ;
#107 = VERTEX_POINT ( 'NONE', #102 ) ;
#108 = DATE_AND_TIME ( #122, #171 ) ;
#109 = VERTEX_POINT ( 'NONE', #79 ) ;
#110 = PERSON_AND_ORGANIZATION ( #133, #20 ) ;
#111 = AXIS2_PLACEMENT_3D ( 'NONE', #167, #73, #71 ) ;
#112 = CARTESIAN_POINT ( 'NONE',  ( 3.000000000000000000, 0.000000000000000000, 0.000000000000000000 ) ) ;
#113 = CC_DESIGN_DATE_AND_TIME_ASSIGNMENT ( #134, #63, ( #51 ) ) ;
#114 =( LENGTH_UNIT ( ) NAMED_UNIT ( * ) SI_UNIT ( .MILLI., .METRE. ) );
#115 = COORDINATED_UNIVERSAL_TIME_OFFSET ( 8, 0, .AHEAD. ) ;
#116 = CALENDAR_DATE ( 2020, 24, 12 ) ;
#117 = ORIENTED_EDGE ( 'NONE', *, *, #22, .F. ) ;
#118 = CARTESIAN_POINT ( 'NONE',  ( -1.614212418857619014, 0.000000000000000000, 0.000000000000000000 ) ) ;
#119 = CLOSED_SHELL ( 'NONE', ( #58, #36, #145, #69 ) ) ;
#120 = LOCAL_TIME ( 9, 51, 33.00000000000000000, #97 ) ;
#121 = CARTESIAN_POINT ( 'NONE',  ( -3.000000000000000000, 1.836970198721029589E-15, -15.00000000000000000 ) ) ;
#122 = CALENDAR_DATE ( 2020, 24, 12 ) ;
#123 = ORIENTED_EDGE ( 'NONE', *, *, #170, .F. ) ;
#124 = PERSON_AND_ORGANIZATION ( #133, #20 ) ;
#125 = EDGE_CURVE ( 'NONE', #149, #109, #103, .T. ) ;
#126 = DIRECTION ( 'NONE',  ( -1.000000000000000000, -0.000000000000000000, -0.000000000000000000 ) ) ;
#127 = APPROVAL_DATE_TIME ( #173, #152 ) ;
#128 = DIRECTION ( 'NONE',  ( -1.000000000000000000, -0.000000000000000000, -0.000000000000000000 ) ) ;
#129 = FACE_OUTER_BOUND ( 'NONE', #18, .T. ) ;
#130 = DIRECTION ( 'NONE',  ( -1.000000000000000000, -0.000000000000000000, -0.000000000000000000 ) ) ;
#131 = AXIS2_PLACEMENT_3D ( 'NONE', #94, #50, #74 ) ;
#132 = MANIFOLD_SOLID_BREP ( 'Ðý×', #119 ) ;
#133 = PERSON ( 'UNSPECIFIED', 'UNSPECIFIED', 'UNSPECIFIED', ('UNSPECIFIED'), ('UNSPECIFIED'), ('UNSPECIFIED') ) ;
#134 = DATE_AND_TIME ( #4, #88 ) ;
#135 = EDGE_LOOP ( 'NONE', ( #146, #159 ) ) ;
#136 = PRODUCT_DEFINITION_SHAPE ( 'NONE', 'NONE',  #51 ) ;
#137 = APPROVAL_PERSON_ORGANIZATION ( #162, #139, #49 ) ;
#138 = DIRECTION ( 'NONE',  ( 1.000000000000000000, 0.000000000000000000, 0.000000000000000000 ) ) ;
#139 = APPROVAL ( #47, 'UNSPECIFIED' ) ;
#140 = DIRECTION ( 'NONE',  ( -1.000000000000000000, -0.000000000000000000, -0.000000000000000000 ) ) ;
#141 = CIRCLE ( 'NONE', #37, 15.00000000000000000 ) ;
#142 = APPROVAL_ROLE ( '' ) ;
#143 = ADVANCED_BREP_SHAPE_REPRESENTATION ( 'QB-CTZQWP-25.4-852-M', ( #132, #43 ), #53 ) ;
#144 = DESIGN_CONTEXT ( 'detailed design', #158, 'design' ) ;
#145 = ADVANCED_FACE ( 'NONE', ( #129 ), #15, .T. ) ;
#146 = ORIENTED_EDGE ( 'NONE', *, *, #168, .F. ) ;
#147 = CARTESIAN_POINT ( 'NONE',  ( 3.000000000000000000, 0.000000000000000000, 15.00000000000000000 ) ) ;
#148 = PERSON_AND_ORGANIZATION_ROLE ( 'design_owner' ) ;
#149 = VERTEX_POINT ( 'NONE', #147 ) ;
#150 = DATE_AND_TIME ( #17, #120 ) ;
#151 = CC_DESIGN_PERSON_AND_ORGANIZATION_ASSIGNMENT ( #29, #106, ( #51 ) ) ;
#152 = APPROVAL ( #89, 'UNSPECIFIED' ) ;
#153 = CIRCLE ( 'NONE', #111, 15.00000000000000000 ) ;
#154 = EDGE_LOOP ( 'NONE', ( #98, #2 ) ) ;
#155 = EDGE_CURVE ( 'NONE', #107, #163, #28, .T. ) ;
#156 = AXIS2_PLACEMENT_3D ( 'NONE', #118, #128, #1 ) ;
#157 = CC_DESIGN_APPROVAL ( #152, ( #104 ) ) ;
#158 = APPLICATION_CONTEXT ( 'configuration controlled 3d designs of mechanical parts and assemblies' ) ;
#159 = ORIENTED_EDGE ( 'NONE', *, *, #9, .F. ) ;
#160 = CARTESIAN_POINT ( 'NONE',  ( -1.614212418857619014, 0.000000000000000000, 15.00000000000000000 ) ) ;
#161 = DIRECTION ( 'NONE',  ( 0.000000000000000000, 0.000000000000000000, 1.000000000000000000 ) ) ;
#162 = PERSON_AND_ORGANIZATION ( #133, #20 ) ;
#163 = VERTEX_POINT ( 'NONE', #121 ) ;
#164 = COORDINATED_UNIVERSAL_TIME_OFFSET ( 8, 0, .AHEAD. ) ;
#165 = CC_DESIGN_DATE_AND_TIME_ASSIGNMENT ( #55, #11, ( #104 ) ) ;
#166 = PRODUCT ( 'QB-CTZQWP-25.4-852-M', 'QB-CTZQWP-25.4-852-M', '', ( #81 ) ) ;
#167 = CARTESIAN_POINT ( 'NONE',  ( 3.000000000000000000, 0.000000000000000000, 0.000000000000000000 ) ) ;
#168 = EDGE_CURVE ( 'NONE', #149, #107, #141, .T. ) ;
#169 = CARTESIAN_POINT ( 'NONE',  ( -3.000000000000000000, 0.000000000000000000, 0.000000000000000000 ) ) ;
#170 = EDGE_CURVE ( 'NONE', #109, #163, #67, .T. ) ;
#171 = LOCAL_TIME ( 9, 51, 33.00000000000000000, #61 ) ;
#172 = COORDINATED_UNIVERSAL_TIME_OFFSET ( 8, 0, .AHEAD. ) ;
#173 = DATE_AND_TIME ( #116, #24 ) ;
#174 = AXIS2_PLACEMENT_3D ( 'NONE', #105, #96, #161 ) ;
#175 = ORIENTED_EDGE ( 'NONE', *, *, #125, .F. ) ;
ENDSEC;
END-ISO-10303-21;
